Идефикс - Не спеши - аккорды и текст песни

Куплет:

1||-----0-------------0------------------------------
2||-------3-------------3---------------8-810-------
3||---2-----2-------2-----2-----------7----------9-9-
4||-3---------3-2-3---------3-2-3-78------------8-7-
5||----------------------------------------------0-0-
6||--------------------------------------------------


Припев:

1||-------0-------------0-------------0-------------0-------|------------------
2||-----8---8---------8---8---------6---6---------6---6-----|------------------
3||---7-------7-----6-------6-----7-------7-----7-------7---|-------8-810-9-9-
4||-8-----------8-7-----------7-0----------0----------------|-----7--------8-7-
5||-------------------------------------------8-----------8-|-78----------0-0-
6||---------------------------------------------------------|------------------


Ночь дарит нам, минуты тишины
Если ты один и на душе дожди
Ты только не спеши, не спеши
Смотреть вниз или назад
Рука в руке, глаза в глаза
Ты же знаешь, так бывает редко
Гораздо чаще мы просто слепки
Обстоятельств или своей мечты
И вечной нищеты, что не говори 
Но не навсегда, это просто слова
Другие законы - нам их не понять 
Это как ты меня пытаешься обнять
А я зол или просто холодно
Давай поссоримся из-за творога
Так чтобы было, так чтобы было
Чтобы меня не грузило, побьем посуду
Выкинем цветы, мне это нужно
Так же как и ты


Припев:

Только не оступись, ты только не торопись
Искать ответы не те, искать ответы не там
Ты только не оступись, не торопись
Искать ответы не те, искать ответы не там


Проснуться ночью пока ты спишь
И удалить все МП3, текст, клипы, песни, сайты
Представь сколько будет свободных мегабайтов
Устроюсь на работу, в пыльном офисе
Я давно уже мечтаю все это бросить
А тут дом, работа, работа, дом
Многочисленные планы ну, а что потом?
Однажды ночью я тихо встану
Поцелую детей, наберу ванну
Одену свою любимую рубаху... И вскроюсь нах*й


Припев:

Только не оступись, ты только не торопись
Искать ответы не те, искать ответы не там
Ты только не оступись, не торопись
Искать ответы не те, искать ответы не там

Понравилась песня "Не спеши" ?

Поделись с друзьями:

Аккорды других песен "Идефикс" :

все песни »
0

Привет, гитарист!

Пройди супер-курс по гитаре и порази всех своей игрой!

Забрать курс!
ВАМ ПОДАРКИ ОТ ПРОЕКТА
"ГИТАРНАЯ РЕВОЛЮЦИЯ"