Дельфин - Ботинки - аккорды и текст песни

Вступление:

B----------------------------7------|
G|--6---8-9----6---8-9------6---8-9---------8---|


В куплете играется только:

B|-----7------|
G|--------8---|


Что ты видел в своей жизни хорошего 
Что ты знаешь о цвете неба 
Что ты можешь вспомнить из своего прошлого 
Кроме того что никогда нигде не был 
Каждый новый твой день оставляет на венах ссадины 
И нет света одна лишь тень 
Солнце твое тобою же и украдено 


Проигрыш:

B----7------|
G|--6---8-9---------8---|


Запах цветов да вещь банальная 
Но ты не сможешь уже его чувствовать 
Плохо закончится история твоя печальная 
Ты начнешь навсегда отсутствовать 
Смерть слезы обычные радости 
Глаза той с которой хочешь быть 
А можно забадяжить себе какой-нибудь гадости 
И навсегда об этом забыть


Проигрыш 2:

B----7------|
G|--6---8-9---------8---|  -x2
B----------------------------7------|
G|--6---8-9----6---8-9------6---8-9---------8---|


Ты убиваешь в себе самое лучшее 
Все то что мог бы отдать другим 
Напоказ выставляя одно лишь только худшее 
Ненавидя себя таким 
Ты топчешь мир своими ботинками 
Не замечая куда наступаешь 
А время от тебя уходит цветными картинками 
Но ты даже этого не понимаешь 


Окончание:

B------------------------|
G|--6---8-9----6---8-9------6---8-9--|

Понравилась песня "Ботинки" ?

Поделись с друзьями:
0

Привет, гитарист!

Пройди супер-курс по гитаре и порази всех своей игрой!

Забрать курс!
ВАМ ПОДАРКИ ОТ ПРОЕКТА
"ГИТАРНАЯ РЕВОЛЮЦИЯ"