ДДТ - Она - аккорды и текст песни

Вступление

e----------2-----------------------------------0------0-
H-------2-----4-----------------3-2-0-3----------3-0-0--
G-------2--------4-----4--------0--------------2--------
D----4--------------4--------0--------------2-----------
A----------2-----------------------------2--------------
E-2-----------------------3-----------------------------


e-------2--------------------------------------0------0-|
H-------2-----4-----------------3-----------------3-0---|
G----------2-----4-----4--------0--------------2--------|
D----4--------------4--------0--------------2-----------|
A-------------2--------------------------2--------------|
E-2-----------------------3-----------------------------|


        F#m  H     
	О-на
	G	      A
	За дверями вагона последнего,
	О-на
	Небеса провожали пропащего,
	О-на
	Целовали косой дождя летнего,
	О-на
	Прижимали к груди уходящего.


	G         Gm	        Hm     Hsus2     Hm  
	Расковала меня ночь бессонная,
	Вынул я перспективу из скважины,
	Закапал у вокзала всё черное,
	Помолясь о здоровьи вражины. 


        F#m  H
	О-на
	G	       A
	До отхода полвека проплакали,
	О-на
	Всё украдкой крестили молитвами,
	О-на
	Ушивали тоской да заплатами,
	О-на
	Напоив иноземными ритмами.


	G               Gm       Hm   Hsus2   Hm
	А я намазал на хлеб расстояние,
	Захлебнулся мечтой родниковою,
	На дорогу надел струны новые,
	Да пустил под откос состояние.


        D       D*     Dsus4	G        D		
        Не пропал ещё голос, на месте глаза,
	Наблюдаю, как в море играет гроза,
	Не сверну я с дороги: один на пути
        D       D*        Dsus4        G         F#m     
	В небе крылья да ноги: "Что делать?" - лети.

Понравилась песня "Она" ?

Поделись с друзьями:
0

Привет, гитарист!

Пройди супер-курс по гитаре и порази всех своей игрой!

Забрать курс!
ВАМ ПОДАРКИ ОТ ПРОЕКТА
"ГИТАРНАЯ РЕВОЛЮЦИЯ"