Чиж и Ко - Капель - аккорды и текст песни

Перебор к первому куплету:

    Em                C       D
E-|-----0---------0-|-----0-----3-2---|
H-|-------0-----0---|-----1---------3-|
G-|-----------0-----|---0---0---------|
D-|-----------------|---------0-------|
A-|---------2-------|-3---------------|
E-|-0---------------|-----------------|
    Ой да капель      ой да капель

    Am                H7       Em
E-|-----------------|-----2-----------|
H-|-----1-------1---|-----4-------0---|
G-|-----2-------2---|---2---------0---|
D-|-----------------|-----------------|
A-|-0-------0-------|02---------------|
E-|-----------------|----------0------|
   Вышел во двор  послушал и спел

    Em                C       D
E-|-----0---------0-|-----0-----3-2---|
H-|-------0-----0---|-----1---------3-|
G-|-----------0-----|---0---0---------|
D-|-----------------|---------0-------|
A-|---------2-------|-3---------------|
E-|-0---------------|-----------------|
Да ветер зануда разогнал весь хмель

    Am                H7       Em
E-|-----------------|-----2-------0---|
H-|-----1-------1---|-----4-------0---|
G-|-----2-------2---|---2---------0---|
D-|-----------------|-------------2---|
A-|-0-------0-------|02-----------2---|
E-|-----------------|----------0--0---|
    Ой да капель да ой да  капель Оп.

note: Первый куплет уже оформлен выше,
note: но тем не менее я решил его и сюда впихнуть.

Припев:
Em             С         D
Ой, да капель, ой, да капель,
 Am                H7       Em
Вышел во двор, послушал и спел.
    Em                   С         D
Да ветер – зануда, разогнал весь хмель,
Am                H7        Em
Ой, да капель, да ой, да капель. Оп.

Тема:
 Em                    H7 Em
Мамка малыша кормила грудью,
Em                     H7 Em
На плите достаивался студень.
Am
Батька мастерил к обеду ложки,
Am                           C  H7
Косточку – собачке, рыбку – кошке.

*Проигрыш: | Em | С D | Am | H7 Em |  х2 раза

Тема:
Бабка по столу самобранку,
Дед точил косу, рубашка наизнанку.
Маленький просился на ручки,
Не давали спать кабели да сучки.

Припев:
Ой, да капель, ой, да капель,
Вышел во двор, послушал и спел.
Да ветер – зануда, разогнал весь хмель,
Ой, да капель, да ой, да капель.

Тема:
Гадала цыганка на годы ему,
Хочу "гудысанку" к щиту и к мечу.
Расправит им плечи прыжком на коня,
Am               C  H7       *Проигрыш
Посыпятся головы-ы во голова-а-а-а-а

Тема:
Ой, да капель, да выплаканы слезы,
Да синица в небе, да дверь с петель.
Сколько не раскладывай колоды,
Нет дороги у вольта червей.

Припев:
Ой, да капель, ой, да капель,
Да вышел во двор, послушал и спел.
Да ветер – зануда, разогнал весь хмель,
Ой, да капель, да ой, да капель.


Понравилась песня "Капель" ?

Поделись с друзьями:
0

Привет, гитарист!

Пройди супер-курс по гитаре и порази всех своей игрой!

Забрать курс!
ВАМ ПОДАРКИ ОТ ПРОЕКТА
"ГИТАРНАЯ РЕВОЛЮЦИЯ"