Чайф - Мама, она больше не может - аккорды и текст песни

D          A   G
Дурная примета - гитара падает из рук
При ударе гитара издает странный звук
И он похож, и он похож на траурный стон
По нам с тобою колокольный звон

Седина в голову, а бес в ребро
Казалось бы не надо, да что-то нашло
И вот уже, навстречу, под стук колес
Прошу тебя молчи, оставь на завтра свой вопрос

Она еще ребенок, да и он не взрослый
Она его любит, а он ее бросит
Но, но это все равно лучше того, о чем пишут
Это, это все равно лучше того, что я ненавижу

  припев:
 D   A G               A 
Мама,   она больше не может
D                 A  G                A
 Смотреть на хрусталь за пыльным стеклом
 D          A    G           A
Мама, отпусти ее, и он ей поможет
D            A       Bm                Bm A G
 Остаться моложе и не забыть твой дом

А у нее есть друг, а у друга беда
От этой бешеной скачки замкнуло провода
Но, но, но остановиться шансов не дано
Вези меня кривая, теперь уж все равно

соло1:
1|---------------------------------5------------------5-------|
2|-------------------------------7---7-7h5--------5-7---7h5---|
3|---------------------4---4-6/7-----------7--4h7-----------7-|
4|-----0-5-4---4-7h4p7---7------------------------------------|
5|-2h4-------7------------------------------------------------|
6|------------------------------------------------------------|
               D       A      G  D   A     G    

1|-------------------------------5------|
2|----------------------------7---7-----|
3|-------------------------4---------7--|
4|----------------------4---------------|
5|-----4h5p4---4-7--5-7-----------------|
6|-5-7-------7--------------------------|
  D              A      G     D   A  G

1-ый куплет
  припев

 D     A      G
Ма-а-а-а-а-а-ма *4

Понравилась песня "Мама, она больше не может" ?

Поделись с друзьями:
0

Привет, гитарист!

Пройди супер-курс по гитаре и порази всех своей игрой!

Забрать курс!
ВАМ ПОДАРКИ ОТ ПРОЕКТА
"ГИТАРНАЯ РЕВОЛЮЦИЯ"