Celine Dion - My Heart Will Go On - аккорды и текст песни

Вступление:
           C#m                Bsus4         A         Bsus4
E--12-14-14h16----14-12-14-19---17-16-12-----------------------
B-----------------------------------------------------14-10-12-
G--------------------------------------------------------------
D--------------------------------------------------------------

           C#m           Bsus4        Asus2  Bsus4
E--12-14-14h16----14-12-14-14-19---16-19-20-19-14-
B-------------------------------------------------
G-------------------------------------------------
D-------------------------------------------------

E                    B          Asus2    E  B
Every night in my dreams I see you, I feel you
   E                 B      Asus2
That is how I know you Go on
 E                    B          Asus2   E  B
Far across the distance and spaces between us
  E                      B  Asus2
You have come to show you Go on.
 C#m  B       Asus2      B
Near, far, wherever you are
     C#m              B      A Asus2
I believe that the heart does Go on
C#m   B        Asus2      B
Once more you open the door
           C#m         G#m          
And you're here in my heart
          A           Bsus4 B  C#m
And my heart will Go on and on

Проигрыш:
           C#m                  Bsus4        Asus2  Bsus4
E--12-14-14h16----14-12-14-14-19---16-19-20-19-14---
B---------------------------------------------------
G---------------------------------------------------
D---------------------------------------------------

Love can touch us one time and last for a lifetime
And never Go till we're gone
  E                     B           Asus2     E  B7
Love was when I loved you, one true time I hold you
C#m              G#m       Asus2
In my life we'll always Go on
Near, far, wherever you are
I believe that the heart does Go on Why does… 
Once more you open the door
And you're here in my heart
And my heart will Go on and on

Проигрыш:
           C#m                Bsus4         A      Bsus4
E--12-14-14h16----14-12-14-19---17-16-12-----------------------
B-----------------------------------------------------14-10-12-
G--------------------------------------------------------------
D--------------------------------------------------------------

           C#m           Bsus4       Asus2   C#m G#
E--12-14-14h16----14-12-14-14-19---16-19-21-23-24-26-
B----------------------------------------------------
G----------------------------------------------------
D----------------------------------------------------

Fm     D#           C#sus2       D#
You're here, there's nothing I fear,
          Fm               D#    C# C#sus2
And I know that my heart will Go on
  Fm   D#  C#sus2      D#
We'll stay forever this way
            Fm          Cm          
You are safe in my heart
             C#    D#sus4 D# G# D# C#sus2 D# G# D# C#sus2 D# G#
And my heart will Go on and on

Понравилась песня "My Heart Will Go On" ?

Поделись с друзьями:
0

Привет, гитарист!

Пройди супер-курс по гитаре и порази всех своей игрой!

Забрать курс!
ВАМ ПОДАРКИ ОТ ПРОЕКТА
"ГИТАРНАЯ РЕВОЛЮЦИЯ"