Бумбокс - Що ти змiг - аккорды и текст песни

Вступление:

  ----------------------------------------------h-p-
A 1---1--0-1----------0-1----------0-1---4--3--1^3^0
E -------------2---2--------1---1------------------------------
 

Verse (part1):

A 1-1-1-1-1-1-1-1-----4----3----1-1-1-1-1-1-4-----3---------1-1-1-1-1-1-1-----4----3----1-1-1-3----1-1-1-3
E ----------------2-2----2--------------------2-2----2-1------------------2-2----2------------------------


Verse (part2):

  --------------------------------------h-p-
A 1-3-4-3-1--------0-1------0-1--4--3--1^3^0
E ----------4-2--2-----1--1-----------------


Bm             F# 
Пригадай сім нот і запиши їх
F             F7
Прокрути на радіохвилях
Що тобі вручає MTV
В твоїх снах, в твоїх солодких снах?
Показав тебе телеканал
Отже, ти, напевно, переміг
Завтра буде інший маргінал
І нам покажуть ЗМІ, що він зміг


Сотні різних шляхів і конфесій
Тисячі атестатів на рік
Та не лишилося більше професій
Суперзірки всі, всі бунтарі
Кастинг не потребує науки
Кожен здатен на все, що захочеш
Срібні голоси, золоті руки
І четвертого розміру очі


Гітаристи, стилісти, моделі
Сталеварів вже не вистачає
Наш зірковий працює конвеєр
Пісеньки пишуться, бабло качається
Майкли Джексони всі, всі Мадонни
Кожен третій, як мінімум, Елвіс
Окуляри, лімо, охорона
"VIP only, only celebrіtіes"


Сам собі головна проблема я
На що здатен, що эго може?
Переміг систему, став сам системою
Ні на що відчуття не схоже
Успіх це вибухова сполука
Менша слава більшої слави хоче
Що ж тримає тепер тебе за руки?
Те, що так солодко нерви лоскоче
Вокалісти, їх музи і феї
Сталеварів вже не вистачає
Наш зірковий працює конвеєр
Пісеньки пишуться, бабло качається
Ця історія без початку
Без кінця ця історія. Е
Доки "біс" вам кричать дівчатка
Поки телефон не замовкає

Видео к песне

Понравилась песня "Що ти змiг" ?

Поделись с друзьями:
0

Привет, гитарист!

Пройди супер-курс по гитаре и порази всех своей игрой!

Забрать курс!
ВАМ ПОДАРКИ ОТ ПРОЕКТА
"ГИТАРНАЯ РЕВОЛЮЦИЯ"