Бутусов Вячеслав - Берег - аккорды и текст песни

Am                                
e:|---------------|-----------------|---------------|
B:|-5-5-3-3-5-5-3-|-5-5-3-3-8-8-6-6-|-5-5-3-3-5-5-3-|
G:|---------------|-----------------|---------------|
D:|---------------|-----------------|---------------|
A:|---------------|-----------------|---------------|
E:|---------------|-----------------|---------------|

                      Dm
e:|-----------------|---------------|-----------------|
B:|-5-5-3-3-0-0-1-1-|-3-3-1-1-3-3-1-|-3-3-1-1-5-5-3-3-|
G:|-----------------|---------------|-----------------|
D:|-----------------|---------------|-----------------|
A:|-----------------|---------------|-----------------|
E:|-----------------|---------------|-----------------|

    F                 E
e:|-----------------|-----------------|
B:|-1-1-----1-1-----|-3-3-----3-3-----|
G:|-----2-2-----2-2-|-----5-5-----5-5-|
D:|-----------------|-----------------|
A:|-----------------|-----------------|
E:|-----------------|-----------------|

riff 1:
e:|---------|
B:|-8-8-6-6-|
G:|---------|
D:|---------|
A:|---------|
E:|---------|

riff 2:
e:|---------|
B:|-0-0-1-1-|
G:|---------|
D:|---------|
A:|---------|
E:|---------|

riff 3:
e:|---------|
B:|-5-5-3-3-|
G:|---------|
D:|---------|
A:|---------|
E:|---------|

riff 4:
e:|-----------------------------------------------|
B:|-----------------------------------------------|
G:|-----------------------------------------------|
D:|-------0-2~--2~-0-2~----------0-2~-0--5-3-2~---|
A:|-0-2-3---------------0--0-2-3------------------|
E:|-----------------------------------------------|


Am                       riff 1                       
К берегу спешат пароходы,
   Am                 riff 2
К берегу бегут поезда,
       Dm                      riff 3
Hо закрыты все замки и засовы - 
    F               E
Hа берег наступает вода.


Берег - это медленная птица,
Берег - это пленный океан,
Берег - это каменное сердце,
Берег - это чья-то тюрьма.


      C                     G
И когда на берег хлынет волна
       Am                  E
И застынет на один только миг -
       F                  C
Hа Земле уже случится война
     Dm                 Am   riff 4
О которой мы узнаем из книг.


Лязгнут золотые ворота
Чей-то голос скажет: "лети !"
Надпись на дверях туалета:
"Будешь на Земле - заходи".


Звездочка блеснет у порога -
Догадайся, сколько ей лет ?
Выйдешь на пустую дорогу - 
Щелкнет за спиной пистолет.


Кто-то поставил на мне пробу
Знать бы только, кто этот "кто" ?
Злоба - воробьиное слово
копится в карманах пальто


И когда вода отступит назад
Берег выйдет и откроет героя
Берег выйдет и откроет врага
Их по-прежнему останется двое.


Виски с сахаром и квашеной капустой 
Лед холодный лед на висках
В голове моей прохладно и пусто
Расскажи мне где ты и как


Хочется блевать но не время
Время начищать сапоги
Косточка как белое стремя
Цвета чьей-то детской ноги


Берег встретит героя
Берег встретит врага
Нас всегда было двое
А теперь только я.

Понравилась песня "Берег" ?

Поделись с друзьями:
0

Привет, гитарист!

Пройди супер-курс по гитаре и порази всех своей игрой!

Забрать курс!
ВАМ ПОДАРКИ ОТ ПРОЕКТА
"ГИТАРНАЯ РЕВОЛЮЦИЯ"