Бригадный подряд - Мода полета - аккорды и текст песни

 C#5 C5  F5  G#5 F#5 A#5
1|-------------------------|
2|-------------------------|
3|--6---3---8--------------|
4|--6---3---8---6---4---8--|
5|--4---5---6---6---4---8--|
6|--------------4---2---6--|


C#5    F5      G#5            riff 
Мода полета пропеллер как зверь
C#5      F5      G#5           riff 
Вот она жизнь и нет в ней потерь
C#5   F#5    G#5     C#5     G#5
А вертолеты летят надо мной стеной
C#5           F#5    G#5       C#5           G#5
Я живу в этой жизни земной-неземной, но что со мной 


riff x4


C#5       F5      G#5        riff 
Жизнь у пилота не так уж легка
C#5       F5        G#5               riff 
Только в полете не дрогнет рука у моряка
C#5     F#5    G#5    C#5          G#5
А дельтапланы бывают легки   хие хе хе
C#5             F#5    G#5     C#5      G#5
А с плотины мне машут рукой мужики-сибиряки


A#5           F5            F#5 
А над тайгою, а над тайгою, а над тайгою        | 		
G#5        C#5    
Горит крупный план


riff 
1|-------------------|
2|-------------------|
3|--666/5/666--------|
4|--666/5/666--------|
5|--444/3/444--------|
6|-------------------|

Понравилась песня "Мода полета" ?

Поделись с друзьями:

Аккорды других песен "Бригадный подряд" :

все песни »
0

Привет, гитарист!

Пройди супер-курс по гитаре и порази всех своей игрой!

Забрать курс!
ВАМ ПОДАРКИ ОТ ПРОЕКТА
"ГИТАРНАЯ РЕВОЛЮЦИЯ"