Би-2 - Зажигать - аккорды и текст песни

Вступление:

   Dm           Am       B            F
D|---7----7---|-10-----|---3----3-5-|-7----|
A|-8----8---8-|------7-|-5----5-----|------|
E|------------|--------|------------|----8-|


       Dm          Am
Жадно так глотает солнце
Два серебряных крыла
Милый друг твой не вернется
        B          F
В этот город никогда


И огни усталых улиц
Станут по тебе скучать
Только им печаль такую
В своем сердце не унять


Припев:

Gm        Dm    C          B
И зажигать...  пьяные звезды
Нет, без тебя... так будет сложно


Как легко плывут ресницы
Не узнает твой герой
Если что нибудь случится
Где-то за морем с тобой


С ним теперь другое небо
Облака над головой
И ступает ангел следом
Незнакомый и чужой


Припев:

И зажигать...  пьяные звезды
Нет, без тебя... так будет сложно


Все коварная разлука 
Обнимала как сестра
Превращая ее руки
В два серебряных крыла


Сколько дождь шептал а толку
Ей казалось не всерьез
И разбилось на осколки
Всех невыплаканных слез


Припев:

И зажигать...  пьяные звезды
Нет, без тебя... так будет сложно


Окончание:

   Dm           Am    F            B
e|-13---13/15-|----|--13---13/15-|---------------------------|
H|------------|-13-|-------------|-10-------------------------|
G|------------|----|-------------|----------------------------|

   Dm           Am    F            B
e|-13---13/15-|----|--13---13/15-|-----------------------------|
H|------------|-13-|-------------|-10--10h12h13p12p10h12p10--|
G|------------|----|-------------|-------------------------------|

Понравилась песня "Зажигать" ?

Поделись с друзьями:
0

Привет, гитарист!

Пройди супер-курс по гитаре и порази всех своей игрой!

Забрать курс!
ВАМ ПОДАРКИ ОТ ПРОЕКТА
"ГИТАРНАЯ РЕВОЛЮЦИЯ"