Би-2 - Сокол - аккорды и текст песни

Вступление:

d----------------------------------------------
a|-2-----------------------5-4--------------7-5------------
e|----3-2-0---0-0-2-3-2--------2----2-2/5-------5----5-5-7-

d-------4-4-7-7-10-10-9------------------------
a----------------------------------------------
e|-8-7----2-2----------------------------------------------

Куплет (играют духовые параллельно со вступлением):

d|---------5-----------4-----------------------------------
a|-2--1-2----2-2-1-2-1----5-4---------------7--------------
e-----------------2---2-2/5-4-5----5-7-8-7-2---

Предприпев:

g-----------------12-12-12-11-11-11-9----------
d|-7-9-7-7-9-7-10-10-12-10-9-----------------------9-------
a----------------------------------------------

g----------------------------------------------
d----------------------------------------------
a|-10-10-10-9-9-9-7----------------------------------------

g----------------------------------------------
d|-7-9-7-7-9-7-10-10-12-10-9--------9-10-9-----------------
a----------------------------------------------

Припев:

a|-2-1-2-2-1-2-------2-1-2-2-1-2-5--4--0-2-0-0-2-0-3--2----
e---3--------------------------------------2-2-

Отрывок из соло:

g-----------------11-6-6-----------2-2-2-2-----
d------5---------------------------------------
a|-2-2-2-2-3-3-3-2---2-2-3-2-----------5-4-----------------
e------------------------------2---------------

g|-4-4-4--5-5-5-5---7-5-4----------------------------------
d----------------------------------------------
a----------------------------------------------
e----------------------------------------------


Вступление: Em F# Am H
   

 Em                         F#
Все объяснит в последний момент
  Am                      H
Брызги страстей, прежние роли
 Em                         F#
Сердце в петле шифрованных лент
 Am                    H
Тайной любви выдаст пароли


 Am                               Em  
Завтра не будет, а ночь - только повод
   Am                    H
Скрыть позади этих глаз холод


Припев:

   Em
Сокол не вышел на связь
  F#
Что-то с тобой приключилось
 Am                        H
Может ты просто меня разлюбила
Сокол не вышел на связь
Смелым секретное средство
Способ остаться в живых - бегство


Воздух молчит, немая вода
Бьются о пристань радиоволны
Память в узлах ведут провода
Следом на верную гибель шпиона


Завтра не будет, а ночь - только повод
Скрыть позади этих глаз холод


Припев:

Сокол не вышел на связь
Что-то с тобой приключилось
Может ты просто меня разлюбила
Сокол не вышел на связь
Смелым секретное средство
Способ остаться в живых - бегство

Понравилась песня "Сокол" ?

Поделись с друзьями:
0

Привет, гитарист!

Пройди супер-курс по гитаре и порази всех своей игрой!

Забрать курс!
ВАМ ПОДАРКИ ОТ ПРОЕКТА
"ГИТАРНАЯ РЕВОЛЮЦИЯ"