Би-2 - Прощай, Берлин - аккорды и текст песни

Вступление:

e|-------10--|-------8/10--8-|-------10--|-------8/10--8-|
H|----8------|----6-----------|----8------|----6-----------|
G|-7---------|-5--------------|-7---------|-5--------------|

   C               Am        F        Fm
e|--------------|--7---5--|--------|--------|
H|-5---8---5--8-|---------|--8---6-|--8---9-|


     C       C+7
В двух шагах от земли
 F     Fm
Догорали огни
В двух пустых городах
В небесах              H|--6-8-9-|


 C       E
Море причин
   Am          F
Зчем осколки берегут
 C      E
Выход один
    Am             F        Fm
Когда по звездам бьет салют


   C          E         Am           F
e|---|------|-7---/10-|-10-8-7-5--|-/10-8-7-5--|
H|-8-|--5-8-|---------|-----------|------------|
G|---|------|---------|-----------|------------|

	            C  Am F Fm
	Прощай, Берлин


   C               Am        F        Fm
e|--------------|--7---5--|--------|--------|
H|-5---8---5--8-|---------|--8---6-|--8---9-|
G|--------------|---------|--------|--------|

   C               Am        F        Fm
e|--------------|--7---5--|--------|--------|
H|-5---8---5--8-|---------|--8---6-|--6-8-9-|
G|--------------|---------|--------|--------|


В двух часах
Между строк
Километры дорог
В двух словах от любви
Замерли                 H|--6-8-9--9-8-9-8-6-|


Море причин
Стена рассыплется на части
Выход один
Когда весь мир оглох от счастья


	Прощай, Берлин

Видео к песне

Понравилась песня "Прощай, Берлин" ?

Поделись с друзьями:
0

Привет, гитарист!

Пройди супер-курс по гитаре и порази всех своей игрой!

Забрать курс!
ВАМ ПОДАРКИ ОТ ПРОЕКТА
"ГИТАРНАЯ РЕВОЛЮЦИЯ"