Би-2 - Мяу кисс ми - аккорды и текст песни

Вступление:

   Am            E             F                  E
e|-------------|-------------|-----------------|-------|
H|-5-----------|-3-----------|-1---------------|------|
G|---5--2------|---4--1------|---2-------------|------|
D|---------3-2-|---------3-2-|------3--3-2---3-|--2--|
A|-------------|-------------|-----------------|------|
E|-------------|-------------|-----------------|------|


Am                 E                   F  
Люби меня как я тебя и может полные края
                     Е
Я расплескаю все до капли
Вода чернеет у моста и за трубой два хвоста
Берут за горло чьи-то лапы


Припев:

     Am                    E     
Мяу кисс ми ненавистная любовь   G|-8-9-8--4-|
     F                     E  
Я зализывать твои не буду раны
Мяу кисс ми свои мысли за кого
Я гореть и плавить свое сердце стану


Навылет очередь она так близко сядет от меня
И разорвет наверно в клочья
И все что дальше только тень и невозможен каждый день
Для тех кому не спится ночью


Припев:

Мяу кисс ми ненавистная любовь
Я зализывать твои не буду раны
Мяу кисс ми свои мысли за кого
Я гореть и плавить свое сердце стану


Окончание:

       Am                  E       F                   E
e|-----5--------5--------|---|-----5--------5--------|-----|
H|-4-5---5--4-5---5--4-5-|---|-4-5---5--4-5---5--4-5-|---|
G|-----------------------|-4-|-----------------------|-4---|

Понравилась песня "Мяу кисс ми" ?

Поделись с друзьями:
0

Привет, гитарист!

Пройди супер-курс по гитаре и порази всех своей игрой!

Забрать курс!
ВАМ ПОДАРКИ ОТ ПРОЕКТА
"ГИТАРНАЯ РЕВОЛЮЦИЯ"