Ber-linn - Водка, сникерс и скейтборд - аккорды и текст песни

Бас-соло:
   F     C           Dm    B
========================================|
G--------5-5-5-5-5-5-------3-3-3-3-3-5--|
D--3-3-3--------------------------------| <-4x
A--------------------5-5-5--------------|
E---------------------------------------|

Перебор:
  F        C      Dm       B               C
====================================================|
E---------------------------------------------------|
B------------------------6-------3------------------|
G--------------5-------7-------3-------3-------5----| <-4x
D------3-----5---5---7-------3-------3---3---5---5--|
A----3---3-3-------5-------1-------1-------3--------|
E--1------------------------------------------------|


Куплет 1 (под перебор):

 Я имя твое напишу на стекле,
 Ты, может быть, вспомнишь о нас, обо мне.
 О том, как ходили вдвоем на каток,
 О том, как любили с тобой мы панк-рок.


Припев:
F  C         Dm   B
    Водку, сникерс и скейтборд. (x4)


Куплет 2:
F                 C                      Dm    B   C
 Теперь я играю просто в отличной панк-группе,
    F              C        Dm   B   C
 И мы собираемся звездами стать.
 Героями чартов, и топов, и всех новостей,
 И ты вдруг увидишь меня на волне, ты увидишь меня на волне.


Припев:

    Мы играм высший класс,
    Мы круты - любите нас! (x2)
    Мы круты - любите...

Перебор 2:
  F        C      Dm       B
====================================|
E-----------------------------------|
B-----------------------------------|
G--------------5-------7-------3----| <-4x
D------3-----5---5---7---7---3---3--|
A----3---3-3-------5-------1--------|
E--1--------------------------------|

Гитара:
   F       C      Dm       B       F       C      Dm        B
=================================================================|
E----------------------------------------------------------------|
B----------------------------------------------------------------|
G------------------------------3----------------------------3-3--| <-2x
D--2-3-3-3-2-3-3-3-2-3-3-3-2-3---2-2-3-3-3-2-3-3-3-2-3-3-3--3-3--|
A-----------------------------------------------------------1-1--|
E----------------------------------------------------------------|


Куплет 3:

  Героями чартов, и топов, и всех новостей. (x2)


Припев:

    Мы играм высший класс. (x4)
    Водка, сникерс и скейтборд, (x3)
    И для всех огромный торт.
 
==============================

Используемые риффы:

   C            F            Dm           B
=======|     =======|     =======|     =======|
E------|     E------|     E------|     E------|
B------|     B------|     B------|     B------|
G--5---|     G------|     G--7---|     G--3---|
D--5---|     D--3---|     D--7---|     D--3---|
A--3---|     A--3---|     A--5---|     A--1---|
E------|     E--1---|     E------|     E------|

Понравилась песня "Водка, сникерс и скейтборд" ?

Поделись с друзьями:
0

Привет, гитарист!

Пройди супер-курс по гитаре и порази всех своей игрой!

Забрать курс!
ВАМ ПОДАРКИ ОТ ПРОЕКТА
"ГИТАРНАЯ РЕВОЛЮЦИЯ"