Ber-linn - Снова ночь - аккорды и текст песни

Куплет 1:
A    C#  Fm#       D
 И снова ночь, и снова на метро;
 Пусть экскалатор идет к центру земли.
 В последний поезд ты садишься, но
 На пересадку опоздал уже.


Гитара:
   С
==========|
E---------|
B---------|
G---------| <-4x
D---------|
A--0-5-4--|
E---------|


Куплет 2:

 В одном кармане есть еще двадцат;
 В другом кармане - зажигалка.
 Твоя сестра сказала: "Ты совсем!",
 Но у нее проблемы с парнем.

Проигрыш:
   A           C#         Fm#          D 
=====================================================|
E----------------------------------------------------|
B----------------------------------------------------|
G----7-6---7-6---6-4---6-4---7-6---7-6---9-7---9-7---|
D--7-----7-----6-----6-----4-----4-----7-----7-------|
A----------------------------------------------------|
E----------------------------------------------------|
    A           C#         Fm#         D
=====================================================|
E----------------------------------------------------|
B---------------------------------7------------------|
G-----7-6---7-6---6-4---6-4---7-6---7-6--9-7---9-7---|
D---7-----7-----6-----6-----4----------7-----7-------|
A----------------------------------------------------|
E----------------------------------------------------|

Куплет 3:

 Автобусы давно ушли все в парк;
 Ты напеваешь "Пачку сигарет".
 И тают звезды на твоих щеках;
 И светафоры зажигают снег.

Бас:

====================================|
G-----------------------------------|
D-----------------------------------| <-2x
A--0-0-0-0-0-0-5-4------------------|
E------------------2-2-2-2-0-0-0-0--|
 

Припев:
  A    E   Fm#  D    A   E
    И ветер, и ветер, и ветер
      D               E
    Рвет все небо в клочья.
    В семнадцать, в семнадцать покоя
    Нет ни днем, ни ночью.
 

==============================

Используемые риффы:

   A           Fm#           E            D            C#
=======|     =======|     =======|     =======|     =======|
E------|     E------|     E------|     E------|     E------|
B------|     B------|     B------|     B------|     B------|
G------|     G------|     G--9---|     G--7---|     G--6---|
D--7---|     D--4---|     D--9---|     D--7---|     D--6---|
A--7---|     A--4---|     A--7---|     A--5---|     A--4---|
E--5---|     E--2---|     E------|     E------|     E------|

Понравилась песня "Снова ночь" ?

Поделись с друзьями:

Аккорды других песен "Ber-linn" :

все песни »
0

Привет, гитарист!

Пройди супер-курс по гитаре и порази всех своей игрой!

Забрать курс!
ВАМ ПОДАРКИ ОТ ПРОЕКТА
"ГИТАРНАЯ РЕВОЛЮЦИЯ"