Бабкин Сергей - Забери - аккорды и текст песни

E|-----------0--------------|-----------0-------------|
H|--------0-----0-----0-----|--------0----------0-----|
G|-----0-----------0-----0--|-----0----------0-----0--|
D|--------------------------|-------------------------|
A|--------------------------|-------------------------|
E|--3-----------------------|--2----------------------|
   
|-----------0-------------|--------------------------|
|--------0----------0-----|--------0--------0--------|
|-----0----------0-----0--|-----0--------0--------0--|
|-------------------------|--------------------------|
|-------------------------|--2--------3--------5-----|
|--0----------------------|--------------------------|

Забери меня к себе, я так устал бежать
За тобою вслед. Открой глаза,
Закрой лицо руками...
Свет, я хочу увидеть свет между нами.

Пустота неистово во мне, понять меня не
Переубедить, прыжок мангуста...
Пусто, пусто, пусто...
Жить, боюсь так дальше жить в ультра-люстрах.

Отпусти с невыносимою утратой,
У трапа идем домой...
Опусти себя в кратеры моей души,
Дыши, дыши, дыши, я сам нажму все клапаны.

Забери меня к себе...

Понравилась песня "Забери" ?

Поделись с друзьями:
0

Привет, гитарист!

Пройди супер-курс по гитаре и порази всех своей игрой!

Забрать курс!
ВАМ ПОДАРКИ ОТ ПРОЕКТА
"ГИТАРНАЯ РЕВОЛЮЦИЯ"