Бабкин Сергей - Цветы - аккорды и текст песни

    Dm                    Dmadd9
E||-------1p0--0--------|--------0--------------|
H||-----3--------3------|------3---3---3--------|
G||---2------------2----|----2-------2---2------|
D||-0-------------------|--3--------------------|
A||---------------------|-----------------------|
E||---------------------|-----------------------|


     G6                    Em/A
E||-------0-------------|--------0р1--3---------|
H||-----3---3---3-------|-----------------------|
G||---0-------0---0-----|------0----------------|
D||-2-------------------|----2------------------|
A||---------------------|--0--------------------|
E||---------------------|-----------------------|


Dm             Dmadd9
Что видят цветы?
G6                Em/A
Наверное то, что и птицы
Когда ранним утром на лепестки
Ложится роса


Что видят цветы?
Когда спят, что им снится?
Куда эти птицы летят


Что слышат цветы?
О чем про себя говорят?
Когда хотят признаться в любви 
И дарят цветы


Что чувствуют птицы
Когда летят?
Наверное то же, что и цветы


Что помнят цветы?
Чему завидуют птицы?
Отрываясь от земли
Ложатся под небеса


Что помнят цветы?
Кто не забыл, 
Как выглядят птицы


Те, кто верит и ждет
Когда кто-то начнет
Творить чудеса


Чего боятся цветы?
Что заставляет их сердце биться
Чаще..чаще.. где прячется страх


Цветы дарят птицам свои лепестки
А птицы цветам свои крылья
И верят что так они станут друг другу близки
Хотя бы на взмах


Dm:    xx0231
Dmadd9:xx3230
G6:    xx2030
Em/A:  x02000

Понравилась песня "Цветы" ?

Поделись с друзьями:
0

Привет, гитарист!

Пройди супер-курс по гитаре и порази всех своей игрой!

Забрать курс!
ВАМ ПОДАРКИ ОТ ПРОЕКТА
"ГИТАРНАЯ РЕВОЛЮЦИЯ"