АукцЫон - The Lamp - аккорды и текст песни

Вступление (проигрыш):

E|---2-2---------5-x-|---2-2---------5-7-|
H|---2-2---------5-x-|---2-2---------5-7-|
G|---2-2---------x-x-|---2-2---------x-x-|
D|---4-----------x---|---4-----------x-x-|
A|---4---2-3-4-0-----|---4---2-3-4-0-----|
E|-2-----------------|-2-----------------|
 
E|---2-2---------5-x-|---2-2---------0-0-|
H|---2-2---------5-x-|---2-2---------2-2-|
G|---2-2---------x-x-|---2-2---------2-x-|
D|---4-----------x---|---4-----------2-x-|
A|---4---2-3-4-0-----|---4---2-3-4-0-----|
E|-2-----------------|-2-----------------|


F#m        E     F#m        A                     A
Я столько падал, я столько падал, столько же вставал
           D       C#7           F#m      C#7
Хотелось крикнуть - мне твердят Не стоит
F#m     E     F#m     A                 A
На горизонте, на горизонте виден пьедестал
         D      C#7       F#m  C#7
Который медного гроша не стоит


 A              E                   F#m Hm7 c
C#m7
  Пусть каждый верит в то, что говорит
 A        E           F#m  Hm7 C#m7
  Не осуждайте их напрасно
 A              E        F#m
  Пусть лампа красная горит
           D   A         F#m
  Всё для того, всё для того
  Hm               H7   C#7            F#m  + проигрыш
    Что жизнь прекрасна...   Жизнь прекрасна


Прекрасно всё, прекрасно всё и шторы на окне
Удобны кресла и удобны позы
И только свечи, и только свечи тают на столе
А мы все верим, но не ждём вопросов


  Пусть каждый верит в то, что говорит
  Не осуждайте их напрасно
  Пусть лампа красная горит
  Всё для того, всё для того
  Что жизнь прекрасна... Жизнь прекрасна

Видео к песне

Понравилась песня "The Lamp" ?

Поделись с друзьями:
0

Привет, гитарист!

Пройди супер-курс по гитаре и порази всех своей игрой!

Забрать курс!
ВАМ ПОДАРКИ ОТ ПРОЕКТА
"ГИТАРНАЯ РЕВОЛЮЦИЯ"