АукцЫон - Седьмой - аккорды и текст песни

Вначале бас:
A|2-----2--|3-----3--|4-----4--|5-----5--|2--
E|----0---0|----0---0|----0---0|----0---0|---


Em            Cm               Hm
Седьмой, седьмой, отвечай седьмой,
            H7  Em          Cm Hm H7
Я тебя не слышу. Почему молчишь?
За окном чужой, но встал герой и вышел.


У волка ночь, у героя меч,
За горами Волга, холод за спиной.
Ничего не жалко, ничего надолго.


  C      Em
Гдееееееее еще?
  C      Em
Чтоооооооо еще?
 C     Em  C Cm Hm
Яяяяяяяяя еще! 


Труба зовет, герой идет, звенит кольчуга.
Только злится вьюга и ветер гонит прочь.
Не уйти надолго, не найти друг друга.
День как день, ночь как ночь!
Где еще? Что еще? Я еще! 


 Em                  Hm   
-|---------|---------|---------|---------|-
-|0---0----|0---0----|---------|---------|-
-|--0-----0|--0-----0|---------|---------|-
-|------2--|------2--|4---4----|4---4----|-
-|---------|---------|--5-----5|--5-----5|-
-|---------|---------|------7--|------7--|-


Em                               Hm
Седьмой , седьмой, отвечай ,седьмой,
                Em               Hm
Я тебя не слышу. Почему молчишь?
За окном чужой, но встал герой и вышел.
Седьмой, седьмой, не надо бы,
Седьмой, седьмой, а может быть,
Седьмой, седьмой, а если бы,
Седьмой, седьмой, ну если бы.
Надо бы, надо бы! Если бы я!

Понравилась песня "Седьмой" ?

Поделись с друзьями:
0

Привет, гитарист!

Пройди супер-курс по гитаре и порази всех своей игрой!

Забрать курс!
ВАМ ПОДАРКИ ОТ ПРОЕКТА
"ГИТАРНАЯ РЕВОЛЮЦИЯ"