АукцЫон - Отлюбил - аккорды и текст песни

Вступление: C/G E Am E7 E 
 

C/G    E Am     E7  E
Отлюбил  и бегу
Отлетал сплю на снегу
Отхотел снова на воле
Перекати-тело перекати-поле
Ой ли мне там где я не был
На-надейся на небо


Em        Em maj7
Летай, летай
G 
Та-да-да та-да-да та-да-да-да
Летай, летай


Outro:

C Am C Am etc. 


С басами
E|---0---0---0-------0---0---0--0--
B|---1---1---1-------1---1---4--0--
G|---0---0---0-------2---2---1--1--
D|---2---2---2-------2---2---2--2--
A|-3-------3-------0---------2--2--
E|-----3-------3-4-----0---0-------


E|----------------------------------------
B|----------------------------------------
G|------0-----0--0-----0-----0-----0------
D|------2-----1--0-----0-----0-----0------
A|------2-----2--2-2-0-2-2-0-2-2-0-2-0----
E|--0-0---0-0----3-----3-----3-----3---3--


E|--0-0-0-0-0---0-0-0-0-0---
B|--0-1-3-3-1---0-1-3-3-1---
G|--0---0---0---2---2---2---
D|--2---2---2---2---2---2---
A|--3-------3---0-----------
E|--------------------------

Видео к песне

Понравилась песня "Отлюбил" ?

Поделись с друзьями:
0

Привет, гитарист!

Пройди супер-курс по гитаре и порази всех своей игрой!

Забрать курс!
ВАМ ПОДАРКИ ОТ ПРОЕКТА
"ГИТАРНАЯ РЕВОЛЮЦИЯ"