Асташонок Александр - Я прошу звезды - аккорды и текст песни

Проигрыш:      
    A         H           A           H
E|--9---------12(0)-------------------12(0)-7(0)-------|
H|--5--12(0)--------12(0)-7(0)--12(0)-------------7(0)-|
G|--6--------------------------------------------------|

    E    G    A    H      E     G     A     H
E|--12(0)------------7(0)-12(0)------------------------|
H----------7(0)----------------------------|
G------------------------------------------|

                                       
   E        D        A       H
E|-------0---------0-------0-------0------|
H|-------0--3----3-3-------0-------0------|
G|-----4-------2---------2-------4--------|
D|---2------0----------2-------4----------|
A--------0-------2------------|
E|-0--------------------------------------|
    
   
Время несется как бешеный ветер,
И солнце с луной, словно маятник вечный.
Но только одно постоянно на небе,
Звезды, что вечно смотрят на мир


Проигрыш:
1) Синтезатор(Гитара):

    E   D    C     D     E   D        C     D     E
E|--0~~~~~~~-3-2-0-2-0---0~~~~~~~-0-2-3-2-3-5-3-2-0~~~~---|
H----------3----------------------------------|

2) Гитара

E---------------------------------------------|
H1-0----------------------1-0-1-3~~~----------|
G|-------2-4-----2----------------2-4---------------------|
D|----0------------0---------2-0--------------------------|
A|----0--------------------2---0--------------------------|
E|-0---------------------0--------------------------------|


         E                   D
Тихо мерцают, хранят в себе тайны,
         A              H
Помнят они даже миросоздание.
И я хочу знать, расскажите мне, звезды,
Что же вы видели в гордом молчании.


Припев:
     C#m  F#m              C#m F#m
Я прошу, звезды, поведайте мне тайны,
     E     F#m    A      H
О которых знаете только вы.
Я хочу просто, стать звездою малой,
Чтоб увидеть сверху, как устроен мир.


Проигрыш.


Но лишь молчание ответом мне было,
Не скажут ни слова ночные светила.
И тихо мерцают, загадочно глядя,
Словно хотят мне что-то сказать.

Припев.

Проигрыш 2:

Синтезатор(Гитара): 
    A       H       A      H       A         H          A          H
E|--14--------------0--------------5-------------------------------14--16-17-|
H|--------2-0---2-4----4-5-7---5-4-----12-14-12---14-16-17---16-17-----------|
G|---3--3--------------------------------------------------------------------|


Припев:

Концовка: E F#m A H E

Понравилась песня "Я прошу звезды" ?

Поделись с друзьями:
0

Привет, гитарист!

Пройди супер-курс по гитаре и порази всех своей игрой!

Забрать курс!
ВАМ ПОДАРКИ ОТ ПРОЕКТА
"ГИТАРНАЯ РЕВОЛЮЦИЯ"