Ария - Будем жить, мать Россия! - аккорды и текст песни

 С                   
E------------------------------
B------------------------------
G-5-5-5-5-5-5-5-5-5-5-5-5-5-5-5
D-5-5-5-5-5-5-5-5-5-5-5-5-5-5-5
A-3-3-3-3-3-3-3-3-3-3-3-3-3-3-3
E------------------------------
 Эй, гони-ка ,парень, с ветерком
   
  G#                 C
E------------------------------------
B------------------------------------
G--------------------5-5-5-5-5-5-5-5-
D-6-6-6-6-6-6-6-6-6--5-5-5-5-5-5-5-5-
A-6-6-6-6-6-6-6-6-6--3-3-3-3-3-3-3-3-
E-4-4-4-4-4-4-4-4-4------------------
Чтобы пела кровь, и пыль столбом

  С                   
E------------------------------------
B------------------------------------
G-5-5-5-5-5-5-5-5-5-5-5-5-5-5-5-5-5-5
D-5-5-5-5-5-5-5-5-5-5-5-5-5-5-5-5-5-5
A-3-3-3-3-3-3-3-3-3-3-3-3-3-3-3-3-3-3
E------------------------------------
 Пусть нам свистнет старый леший вслед
   
  G#                   C
E-------------------------------------------
B-------------------------------------------
G----------------------5-5-5-5-5-5-5-5-5----
D-6-6-6-6-6-6-6-6-6-6--5-5-5-5-5-5-5-5-5----
A-6-6-6-6-6-6-6-6-6-6--3-3-3-3-3-3-3-3-5----
E-4-4-4-4-4-4-4-4-4-4-----------------------
 Ведьма спрячет в чаще белый свет

  Dm    
E-----------------------------------------
B-----------------------------------------
G-7-7-7-7-7-7-7-7-7-7-7-7-7-7-7-7-7-7-7-7-
D-7-7-7-7-7-7-7-7-7-7-7-7-7-7-7-7-7-7-7-7-
A-5-5-5-5-5-5-5-5-5-5-5-5-5-5-5-5-5-5-5-5-
E-----------------------------------------
 По родным дорогам, темным и убогим

  Bb
E-----------------------------------------
B-----------------------------------------
G-3-3-3-3-3-3-3-3-3-3-3-3-3-3-3-3-3-3-3-3-
D-3-3-3-3-3-3-3-3-3-3-3-3-3-3-3-3-3-3-3-3-
A-1-1-1-1-1-1-1-1-1-1-1-1-1-1-1-1-1-1-1-1-
E-----------------------------------------
К черту в пасть, чтоб пропасть

  Dm
E-----------------------------------------
B-----------------------------------------
G-7-7-7-7-7-7-7-7-7-7-7-7-7-7-7-7-7-7-7-7-
D-7-7-7-7-7-7-7-7-7-7-7-7-7-7-7-7-7-7-7-7-
A-5-5-5-5-5-5-5-5-5-5-5-5-5-5-5-5-5-5-5-5-
E-----------------------------------------
  А потом воскреснуть и на том же месте 
   
  Bb                A
E-------------------------------
B-------------------------------
G-3-3-3-3-3-3-3-3-3-2-2-2-2-2-2-
D-3-3-3-3-3-3-3-3-3-2-2-2-2-2-2-
A-1-1-1-1-1-1-1-1-1-0-0-0-0-0-0-
E-------------------------------
Крест вознести золотой


Справа волнами то смех, то мат
Кто-то бьет из пушки наугад
Слева тишь да божья благодать
Нет, умом тебя мне не понять
Тут и там седые, странные босые
А в глазах - небеса
Выпьют и закусят, все до нитки спустят
Нрав свой покажут крутой


Припев 1:
  Em                  Hm
E---------------------------
B---------------------------
G-9-9-9-9-9-9-9-9-9-9-4-4-4-
D-9-9-9-9-9-9-9-9-9-9-4-4-4-
A-7-7-7-7-7-7-7-7-7-7-2-2-2-
E---------------------------
 Будем жить, Мать Россия
 
   G             A
E-------------------------
B-------------------------
G-------------------------
D--5-5-5-5-5-5-5-7-7-7-7--
A--5-5-5-5-5-5-5-7-7-7-7--
E--3-3-3-3-3-3-3-5-5-5-5--
С нами крестная сила

   F#                    G#m               F#    G#m
E------------------------------------------------------
B------------------------------------------------------
G------------------------------------------------------
D--4-4-4-4-4-4-4-4-4-4-4-6-6-6-6-6-6-6-6-6-4-4-4-6-6-6-
A--4-4-4-4-4-4-4-4-4-4-4-6-6-6-6-6-6-6-6-6-4-4-4-6-6-6-
E--2-2-2-2-2-2-2-2-2-2-2-4-4-4-4-4-4-4-4-4-2-2-2-4-4-4-
  Нет той беды, что пройдет мимо нас стороной


Em            Hm
E-------------------
B-------------------
G-9-9-9-9-9-9-4-4-4-
D-9-9-9-9-9-9-4-4-4-
A-7-7-7-7-7-7-2-2-2-
E-------------------
 Были Орды и ханы
  
    G        A
E------------------------
B------------------------
G------------------------
D--5-5-5-5-5-7-7-7-7-----
A--5-5-5-5-5-7-7-7-7-----
E--3-3-3-3-3-5-5-5-5-----
 Грозные атаманы

   F#            G#m               F#    G#m        
E----------------------------------------------
B----------------------------------------------
G----------------------------------------------
D--4-4-4-4-4-4-4-6-6-6-6-6-6-6-6-6-4-4-4-6-6-6-
A--4-4-4-4-4-4-4-6-6-6-6-6-6-6-6-6-4-4-4-6-6-6-
E--2-2-2-2-2-2-2-4-4-4-4-4-4-4-4-4-2-2-2-4-4-4-
  Но последнее слово всегда за тобой


Эй, гони-ка ,парень, с ветерком
К черту думы о лихом былом
Грянем песню, да на весь окрест
Бог не выдаст, свинья не съест
По родным дорогам, темным и убогим
К черту в пасть, эх, не в масть
А потом воскреснуть и на том же месте 
Крест вознести золотой


Припев 1:

Будем жить, Мать Россия
С нами крестная сила
Нет той беды, что пройдет мимо нас стороной
Были Орды и ханы
Грозные атаманы
Но последнее слово всегда за тобой


Эй, гони-ка ,парень, на простор
Нам не страшен ни один забор
Вновь меняя пряники на кнут
И веками люди чуда ждут
Мчатся по дорогам, темным и убогим
К черту в пасть, чтоб пропасть
А потом воскреснут и на том же месте 
Крест вознесут золотой


Припев 2:

Будем жить, Мать Россия
С нами крестная сила
Не впервой рисковать нам своей головой
Были Орды и ханы
Грозные атаманы
Но последнее слово всегда за тобой

Понравилась песня "Будем жить, мать Россия!" ?

Поделись с друзьями:
0

Привет, гитарист!

Пройди супер-курс по гитаре и порази всех своей игрой!

Забрать курс!
ВАМ ПОДАРКИ ОТ ПРОЕКТА
"ГИТАРНАЯ РЕВОЛЮЦИЯ"