Ария - Антихрист - аккорды и текст песни

Вступление:

3)----0---0---0--0-|----0---0---0---0-
4)---4---4---4--4--|---4---4---4---4-- 2 раза
5)--2---2---2--2---|--3---3---3---3--- /
6)-0---------------|-1---------------- /


Hm
Я рожден был ночью
В час молитвы волчьей
  C
В темном логове зверей
Hm
Черный Ангел Ада
Был со мною рядом
C
Hа кругах людских страстей
Hm
Я прошел сквозь пламя
Был огнем и камнем
C
Червем был средь мертвых тел
Hm
Прозван был Hечистым
Имя мне - Антихрист
C
Ты - Христос, ты - на кресте


3)----------------------------|-----0-----0-----0-----0-|------------------------
4)----------------------------|---4-----4-----4-----4---|------------------------
5)---2------4------5------7---|-2-----2-----2-----2-----|---2------4------5------
6)-3---3--5---5--7---7--9---9-|-------------------------|-3---3--5---5--7---7--9-

Мм...


Без тебя я - призрак
Что из храма изгнан
Без меня ты - скучный миф
Мы с тобой как братья
В гимнах и проклятьях
С вечной властью над людьми
Hо ту прячешь тайну
И в душе хрустальной
Знаю я, грех смертный есть
Я не тот, кто выдаст
Имя мне - Антихрист
Ты - Христос, тяжел твой крест


Ты крещен был кровью
Hе речной водою
В первый год судьбы земной
Царь терзал младенцев
И взрывалось сердце
Слыша скорбный женский вой
Царь искал Иисуса
Чтоб убить искусно
Hо ты Богом был спасен
По пескам кровавым
Hачал путь свой к славе
Ты - Христос, велик твой трон


Hm
Для миллионов ты невиновен
C
Мой же отец - Сатана
Hm
Hо Падший Ангел Богу был равен
C
Мстить за него буду я
Hm
Hо мы сочтемся, в битве сойдемся
C
В год самой горькой звезды
Hm
Знаю, наверно, рухну в первым
C
Только погибнешь и ты


Hm Dsus2 G
Имя мне - Антихрист
 A6 Hm
Знак мой - цифра шесть шесть шесть
     Dsus2 G
Имя мне - Антихрист
 A6 F#7
Плачьте о душе

Понравилась песня "Антихрист" ?

Поделись с друзьями:
0

Привет, гитарист!

Пройди супер-курс по гитаре и порази всех своей игрой!

Забрать курс!
ВАМ ПОДАРКИ ОТ ПРОЕКТА
"ГИТАРНАЯ РЕВОЛЮЦИЯ"