Ария - Ангельская пыль (вариант 2) - аккорды и текст песни

Вступление:

G|----------------------------|
D|---9---7---5-----4-5-4------|
A|-7---5---3---5-7-------7-5--|
E|----------------------------|

G|----------------------------|
D|---9---7---5----------------|
A|-7---5---3---2-3-2----------|
E|--------------------3-2-0---|

G|----------------------------|
D|---9---7---5-----4-5-4------|
A|-7---5---3---5-7-------7-5--|
E|----------------------------|

G|----------------------------|
D|---9---7---5----------------|
A|-7---5---3---2-3-2----------|
E|--------------------3-2-0---|


На краю обрыва, за которым вечность
Ты стоишь один во власти странных грез
И, простившись с миром, хочешь стать беспечным
Поиграть с огнем нездешних гроз
Наконец ты счастлив как никто на свете
Ангельская пыль тебя уносит вверх
Только ей подвластны и восторг, и ветер
В жидких небесах звучит твой смех


Припев:

G|-------------------0-0-0--3-2--------|
D|---5-----7-----9-9------------3-2----|
A|-3---5-5---7-7-----------------------|
E|-------------------------------------|
   Ангельская пыль


G|-------------------------------------|
D|---5---7-----------------4-----------|
A|-3---5---2-2-2-2-2-2-2-2---2-2-2-----|
E|---------------------------------3-2-|
   Это сон и быль

G|-------------------------------------|
D|---9-----5-----------4-5-4-----------|
A|-----3-3-------5--5-7-------7-5------|
E|-0---------3-3-----------------------|

   Безумец, беглец - дороги нет
G|----------------------------------------|
D|-----9--0-0-----5-5-0-5-5----7-5--7--7--|
A|-7-7--------3-3------------5--5--5--5---|
E|----------------------------------------|

   Ты видишь неверный свет

G|----------------------------------------|
D|-----------------------5----------------|
A|-----7--0-0-----3--3-3-------2-3-2------|
E|-5-5--------1-1----------3-5-------5-3--|

   Твой ангел зажег мираж огня

G|----------------------------------------|
D|---
 

Отправитель: Басамыкин Артём и Паутов Тимур, paut.94@mail.ru

Понравилась песня "Ангельская пыль (вариант 2)" ?

Поделись с друзьями:
0

Привет, гитарист!

Пройди супер-курс по гитаре и порази всех своей игрой!

Забрать курс!
ВАМ ПОДАРКИ ОТ ПРОЕКТА
"ГИТАРНАЯ РЕВОЛЮЦИЯ"