Animal Jazz - Таксофоны - аккорды и текст песни

Вступление и куплетная тема: 

      Em 
e||----------------------------------------------------------| 
H||----------------------------------------------------------| 
G||----------------------------------------------------------| 
D||---9--9-10-9---9---9-10-9---9---9-10-9---9---9-10-9-------| 
A||------------10-----------10-----------10-----------10~----| 
E||----------------------------------------------------------| 


      E       F        Esus4    E  Em 
e||------------------------------------| 
H||------------------------------------| 
G||------------------------------------| 
D||-----6---6---7---7~---7---7-----9~--| 
A||---7---7---8---8----7---7----7~-----| 
E||------------------------------------| 


Em 
Поездам осталось ждать 
                     E F Esus4 E Em 
Всего лишь несколько минут 
До 12-ти досчитать 
И расслабившись уснуть 
А потом на юг прорваться 
Через сотни миль пути 
И на веки там остаться 
Не прощенными уйти 


Припев:

D            C#+7 D 
Таксофоны километры 
Отмеряют без труда 
Освещенные проспекты 
Путь укажут в никуда 
Мы уйдем подобно свету 
Растворимся в вечной мгле 
Были мы и вот нас нету 
               Em 
И не будет на Земле 


Отречемся, бросим в воду 
Секондхэндные мечты 
Полжизни в поисках свободы 
Мы поделим на двоих 
Извиваясь улиц вены 
Все исколоты дождем 
И по ним на край вселенной 
Мы пришли и мы уйдем 


Припев:

D            C#+7 D 
Таксофоны километры 
Отмеряют без труда 
Освещенные проспекты 
Путь укажут в никуда 
Мы уйдем подобно свету 
Растворимся в вечной мгле 
Были мы и вот нас нету 
               Em7   F+7 
И не будет на Земле. Нас 
              Em7   F+7 
Не будет на Земле. Нас 


Окончание: Em

Понравилась песня "Таксофоны" ?

Поделись с друзьями:
0

Привет, гитарист!

Пройди супер-курс по гитаре и порази всех своей игрой!

Забрать курс!
ВАМ ПОДАРКИ ОТ ПРОЕКТА
"ГИТАРНАЯ РЕВОЛЮЦИЯ"