Animal Jazz - Реквием 2005 - аккорды и текст песни

Вступление: Em


Em
Пролетая над гнездом 
Дом 
D/F#
Загляделся на рассвет 
Свет
G 
Исчезающий вдали 
Блик 
D/F#
Сотен тысяч сигарет 


Gm
Но навсегда забыл весну 
F
И дом, что стал совсем родным
Лишь дым 
C7
И та, чьи руки на плечах
F
Лишь страх не остаться одному 


Твоя дорога вдаль легка 
Как 
Будто вовсе слова нет 
Нет 
И мир, оставленный тобой 
А ты пой 
Идет к привычному концу 


Но навсегда забыл весну
И дом, что стал совсем родным
Лишь дым 
И та, чьи руки на плечах
Лишь страх не остаться одному 


Проигрыш: Em 


Em  D   Asus2     C       Bm 
Настанет день, погаснут звезды 
Em   D     Asus2 C  Bm
В твоем окне 
Настанет день  и будет поздно 
Любить сильней 


Ответь дождем холодным, свежим
Ну где же ты? 
Куда идем? Твои надежды
Всего лишь дым


Проигрыш: Em | D | Asus2 | C Bm


Рифф в 1м и 3м куплетах:

     Em         D/F# G          D/F#
e|----------------------------------| 
H|---0--0-0-0-0-3-3--3---3-3-3--3---| 
G|---0--0-0-0-0-2-2--0---0-0-0--2---| 
D|----------------------------------| 
A|----------------------------------| 
E|---0----------2----3----------2---| 


Рифф во 2м и 4м куплетах:

     Gm         F    C          F 
e|----------------------------------| 
H|----------------------------------| 
G|---3--3-3-3-3-2-2--3---3-3-3--2---| 
D|----------------------------------| 
A|-------------------3--------------| 
E|---3----------1---------------1---| 

Понравилась песня "Реквием 2005" ?

Поделись с друзьями:
0

Привет, гитарист!

Пройди супер-курс по гитаре и порази всех своей игрой!

Забрать курс!
ВАМ ПОДАРКИ ОТ ПРОЕКТА
"ГИТАРНАЯ РЕВОЛЮЦИЯ"