Animal Jazz - Никому - аккорды и текст песни

Fm            C7
Разорваны линии
C#            C7
Ведущие с небес
Fm                C7
Веди меня, держи меня
C#           C7
Пока я не исчез


Взлетаю к облакам
Иду ко дну
Я не отдам
Тебя никому


F5 | F5 | C#5 |C5 | C#5


Боль в дюнах, дискотеки во дворцах
По линиям метро
Любовь уходит, остается страх
Плач северных ветров


Расплавь меня взглядом
Взорви словами
Останься рядом
И пусть обманет


Читаю по губам
Пью тишину
Я не отдам
Тебя никому


Партия на фортепиано в первом куплете:

Fm C C# C
e:--------1~--------3~--------4~--------3~--|
B:------1-1~------5-5~------6-6~--5---5-5~--|
G:----1---1~----5---5~----6---6~----5---5~--|
D:--------3~--------5~--------6~--------5~--|
A:------------3---------4---------3---------|
E:--1---------------------------------------|


F5 C5
e:------------------------------------|
B:------------------------------------|
G:------------------------------------|
D:------------------5-5-5-5-5-5-5-5---|
A:--3-3-3-3-3-3-3-3-3-3-3-3-3-3-3-3---|
E:--1-1-1-1-1-1-1-1-------------------|

Понравилась песня "Никому" ?

Поделись с друзьями:
0

Привет, гитарист!

Пройди супер-курс по гитаре и порази всех своей игрой!

Забрать курс!
ВАМ ПОДАРКИ ОТ ПРОЕКТА
"ГИТАРНАЯ РЕВОЛЮЦИЯ"