Алиса - Веретено - аккорды и текст песни

               Gm
e|-17-15-17----15---------------------------------| \
H|-------------------15---------------------------| / 2 раза

               Eb
e|-13-11-13----11---------------------------------| \
H|-------------------11---------------------------| / 2 раза

 Gm   Cm
 Облака
F               D
 Гонит в осень туман,
 Над водой
 Золотой караван.
 По лесам
 Заплутали дожди,
 С ними я,
 До капели не жди.

	          Gm          Cm
	 Опять игра, опять кино,
	F             D
	 Снова выход на бис.
	 Плетет судьбу веретено
	 За чертою кулис.
	 Когда-нибудь замедлить бег
	 И, уже не спеша,
	 Увидеть, как берет разбег
	 Душа...

Проигрыш (сыграть дважды):

    Gm                                        F6
e|-----------------------------------------------------------------------5--------3---|
H|--------3-----------------------------1-----3---------------------------------------|
G|-(0)-------------0-----2-----3------------------------------------------------------|

    Eb                                        D
e|-----------------------------5--------3---------------------------------------------|
H|--3-----------------------------------------1--------------------------1------------|
G|--------------------------------------------------------------3-----------------3---|

 Снег летит,
 Кружит время метель,
 Над землей -
 Белая канитель.
 По весне
 Ливни ринутся в бой,
 С ними я
 Возвращаюсь домой.

	 Припев.

Проигрыш (сыграть дважды):

    Gm                                              F6
e|-----------5--------3-----------------------------5------------6-----5--------------|
H|--3-----------------------3-----------------3---------------------------------------|
G|-----------------------------------5------------------------------------------------|
    Eb                                              Gb
e|-----------10-------8-----------------------------6------------8-----6--------------|
H|--8-----------------------8---------------------------------------------------------|
G|-----------------------------------7--------8---------------------------------------|

	 Припев

Кода = вступление

Проигрыш во время куплета:

    Gm                                        Cm
e|-------------5----------------------------------------------------------------------|
H|----------3------------------------------------------8--10--------------------------|
G|-------3------------------------------------------8---------------------------------|
    F                                         D
e|--------------------------------------------------------8---------------------------|
H|-----------8--10--------------------------------------------------------------------|
G|--------8-----------------------------------------7--7------------------------------|

Проигрыш во время припева:

    Gm                                        Cm
e|------------------------------------------------------------------------------------|
H|--------3--------3--------3-----------------------3--------3--------3---------------|
G|-----5--------5--------5-----0--2--3-----------5--------5--------5-----0--2--3------|

    F                                         D
e|--------------------------------------------------1--------1--------1---------------|
H|--------3--------3--------3--------------------3--------3--------3--------2--3------|
G|-----5--------5--------5-----0--2--3-----------------------------------3------------|

Понравилась песня "Веретено" ?

Поделись с друзьями:
0

Привет, гитарист!

Пройди супер-курс по гитаре и порази всех своей игрой!

Забрать курс!
ВАМ ПОДАРКИ ОТ ПРОЕКТА
"ГИТАРНАЯ РЕВОЛЮЦИЯ"