Акула - Мало - аккорды и текст песни

H5
---------------------------------------------------------
---------------------------------------------------------
--------------------------------------------------------
-------------4----2---0------------------4-4--2---0--
---2------------------------------2--------------------
--------------------------------------------------------
G5
--------------------------------------------------------
--------------------------------------------------------
-------------------------------------------------------
--------------5---4----2------------------------------
-----------------------------------------------------
---3------------------------------------------------
A5
-----------------------------------------------------
-----------------------------------------------------
------------------------------------------------------
--------------7-7-7----5--4-----------------------
-----------------------------------------------------
----5----------------------------------------------


H5
Ла-ла-ла-ла ла-ла-ла-ла-ла ла-ла-ла-ла
G5             A5
А мне все мало

 
H5
Он в кафе меня приглашает
  G5               A5
Встречи мне назначает
Домой меня провожает
Девчонок других не замечает
Из школы меня встречает
Любимой меня называет
Желания выполняет
Он так меня понимает


Ла-ла-ла-ла ла-ла-ла-ла-ла ла-ла-ла-ла 
А мне все мало
Ла-ла-ла-ла ла-ла-ла-ла-ла ла-ла-ла-ла
А мне все мало


Он так нежно со мной играет
Открытки мне посылает
Весь пейджер мой заполняет
И ничего не запрещает
Портреты мои рисует
Так часто по мне тоскует
Ласкает меня и целует
Он очень меня балует


Ла-ла-ла-ла ла-ла-ла-ла-ла ла-ла-ла-ла 
А мне все мало
Ла-ла-ла-ла ла-ла-ла-ла-ла ла-ла-ла-ла
А мне все мало

Видео к песне

Понравилась песня "Мало" ?

Поделись с друзьями:
0

Привет, гитарист!

Пройди супер-курс по гитаре и порази всех своей игрой!

Забрать курс!
ВАМ ПОДАРКИ ОТ ПРОЕКТА
"ГИТАРНАЯ РЕВОЛЮЦИЯ"