Агата Кристи - Я буду там - аккорды и текст песни

Вступление:

1 ----------------------------------------------------
2 ----------------------------------------------------
3 -----------2----------22------------------------0---
4 -------0-0---4----0-0----4--44220----0------------4-
5 --2-2----------22-----------------43---43--0033-----
6 ----------------------------------------------------

1 ---------------------332----10--9--7
2 -------------5533213--------9---8---
3 -----------1------------------------
4 -------004--------------------------
5 --2-2-------------------------------
6 ------------------------------------

Во время куплета:
Hm
1 ------------------   До свиданья малыш
2 ------------------
3 ----------------1-   Я упал,а ты летишь
4 ------2-4-----4---                 Dm
5 --0-2-----0-2-----   Ну и ладно улетай
6 ------------------      Am
В рай
Hm
Ничего-ничего
Мы увидимся еще
Dm
Я и сам,я и сам
F#
Назло врагам
Hm
Буду там


После куплета:

1 ----------------------------------------------------
2 ----------------------------------------------------
3 ----------22--------------------------0----------1--
4 --4----00----4---44220----0-------------4----004----
5 ----22-----------------43---43---0033-----22--------
6 ----------------------------------------------------

1 ------32--------33--10--9---777-------
2 ----3----321--1------9--8-------------
3 --1-----------------------------------
4 --------------------------------------
5 --------------------------------------
6 --------------------------------------

Видео к песне

Понравилась песня "Я буду там" ?

Поделись с друзьями:
0

Привет, гитарист!

Пройди супер-курс по гитаре и порази всех своей игрой!

Забрать курс!
ВАМ ПОДАРКИ ОТ ПРОЕКТА
"ГИТАРНАЯ РЕВОЛЮЦИЯ"