Агата Кристи - Вервольф - аккорды и текст песни

Gm      Am             Gm      Cm        F
Бедному холодно зимой, бедному волком ты вой,
Gm      D         Gm
Пустите бедного домой.
Gm      Am             Gm         Cm     F
Сяду я к жаркому огню, мяса съем, чаю попью
Gm         D        Gm
И вам бесплатно подарю:

Fm        Em          Fm         Em
Все небо, все звезды, все камни, все сосны,
Fm           Em     D       Am
Все, обо что кто-то точит зубы.

Gm      Am                Gm      Cm         F 
Хочется в теплую кровать, хочется жить, а не ждать.
Gm       D         Gm 
Люди, пустите ночевать.

Волку так холодно зимой, волком хоть волком ты вой,
Пустите бедного домой.
Сяду я к жаркому огню, мяса съем, чаю попью
И всем бесплатно подарю:

Все небо, все звезды, все камни, все сосны,
Все, обо что волки точат зубы.
Хочется в теплую кровать, хочется жрать, а не ждать.
Гады, пустите ночевать.


Ниже находится мелодия песни. Под табулатурой - текст из первого куплета. 
Над табулатурой - ноты, которые можно без знания гитарного строя сыграть 
на любом другом инструменте, например на фортепиано.

[1 часть] играется в самом начале, ещё до слов, потом 2 раза, потом [2 часть], 
и потом [1 часть] (если есть возможность, то на октаву выше); во втором 
куплете последовательность повторяется, в конце песни всё играется уже без 
слов ещё раз (если есть возможность, то в октаву (то есть одновременно в 
первой и во второй октавах))  

[1 часть]
соль ля сиЬ   ля сиЬ ля  соль ля   соль ля сиЬ  до сиЬ    
e|------------------------------------------------------ 
B|-----------------------------------------------1------ 
G|-0--2---3----2--3---2----0---2-----0--2---3--------3-- 
D|------------------------------------------------------ 
A|------------------------------------------------------ 
E|------------------------------------------------------ 
   Бе-дно-му   хо-ло-дно   зи-мой,   бе-дно-му   вол-ком 

       ля   фа    соль ля сиЬ  ре до  сиЬ  ля  соль   
     -----------------------------------------------|
     ---------------------------3--1----------------|
     ---2-----------0--2---3-----------3----2--0----|
     --------3--------------------------------------|
     -----------------------------------------------|
     -----------------------------------------------|
        ты   вой,   Пу-сти-те   бе-дно-го   до-мой 




[2 часть]
   фа    до си   ми  си  ля    фа    до си    ми  си ля     
e|------------------------------------------------------ 
B|-------1--0--------0---------------1---0--------0----- 
G|------------------------2--------------------------2-- 
D|-3-------------2-------------3--------------2--------- 
A|------------------------------------------------------ 
E|------------------------------------------------------ 
   Всё   не-бо,  все звёз-ды,  все   кам-ни,  все со-сны,    

      фа   ре до  ми    си  до   ре до    си ля
   -----------------------------------------------|
   ----------3-1---------0---1----2--1-----0------|
   -------------------------------------------2---|
   ----3-----------2------------------------------|
   -----------------------------------------------|
   -----------------------------------------------|
      Всё,  обо   что   кто-то   то-чит   зу-бы

Понравилась песня "Вервольф" ?

Поделись с друзьями:
0

Привет, гитарист!

Пройди супер-курс по гитаре и порази всех своей игрой!

Забрать курс!
ВАМ ПОДАРКИ ОТ ПРОЕКТА
"ГИТАРНАЯ РЕВОЛЮЦИЯ"