Агата Кристи - Сапоги - аккорды и текст песни

   Am       G         C        E        Am       G       C       E
1|-0----0---3-----3-1-0--------0--------0----0---3---3-1-0-------0-4-|
2|-1------1-0---------1--3-1-3-0--0-1-0-1------1-0-------1-3-1-3-0---|
3|-2--2-----0---0-----0--------1--------2--2-----0-0-----0-------1---|
4|-2--------0---------2--------2--------2--------0-------2-------2---|
5|-0--------2---------3--------2--------0--------2-------3-------2---|
6|-0--------3---------0--------0--------0--------3-------0-------0---|

1|----------------------------------------------------------|
2|----------------------------------------------------------|
3|----------------------------------------------------------|
4|--------------------------------------------2-----2-------| 
5|------------------------------3-0-2-3-0-3-5---3-5---5-3-2-|
6|--5-0-3-5-0-5-4-3-0-2-3-0-2-3-----------------------------|


 Am        G         C         E
Взял, приобрёл сапоги, но они малы
Я хотел обменять мне сказали - "жди"
Я сказал - "подожду, но давай бегом"
"Больших нет" - говорят вот такой облом


Припев:

 Am        G          C 
Я в сапогах пришёл домой 
       E          Am
Какая боль о боже мой
Я так устал натёр мозоль 
О боже мой какая боль
Домой пришёл пропала боль
И не осталось ничего
А я живу плюю на боль
Мне пофиг всё 


1|---0------3-1-0---------------------0-------3-1-0-------0-4-|
2|----1-0---------3-1-3-0--0-1-0--------1-0---------3-1-3-----|
3|-2------0----------------------2----------0-----------------|
4|----------------------------------2-------------------------|
5|------------------------------------------------------------|
6|------------------------------------------------------------|


Боль, это боль как её ты не назови
Это всё сапоги ведь они малы
Я себе приказал наплевать на боль
Вот и всё, боль прошла я теперь хромой


Припев:

1|------------------------------------------------------------------|
2|------------------------------------------------------------------|
3|------------------------------------------------------------------|
4|---2-------5-3-2--0---0----------------2-------5-3-2--0---0-2-6-7-|
5|-0---3-2------------3---2--2-3-2-0---0---3-2------------3---------|
6|---------3-----------------------------------3--------------------|

Понравилась песня "Сапоги" ?

Поделись с друзьями:

Аккорды других песен "Агата Кристи" :

все песни »
0

Привет, гитарист!

Пройди супер-курс по гитаре и порази всех своей игрой!

Забрать курс!
ВАМ ПОДАРКИ ОТ ПРОЕКТА
"ГИТАРНАЯ РЕВОЛЮЦИЯ"