Агата Кристи - Кто украл мою звезду - аккорды и текст песни

Вступление: Hm Hm Em F#


4|---0-2-5-4-0-2---2-5-4-0-2---|
5|---0-2-5-4-0-2---2-5-4-0-2---|
6|-----------------------------|

3|---0-2-5-4-0-2---2-5-4-0-2---|
4|---0-2-5-4-0-2---2-5-4-0-2---|
5|-----------------------------|

3|---0-4-4-4-2-4---4-4-4-2-4---|
4|---0-4-4-4-2-4---4-4-4-2-4---|
5|-----------------------------|


Hm
Я гляжу на небеса
Em              F#
Напрягая все глаза
Hm
А на небе ни звезды
Em              F#
В мире только я и ты


Hm
И только небо знает правду
О том, как я тебя хочу
Em
О том, как я еще не верю
F#
В то, что скоро полечу


И только небо знает правду
Кто украл мою звезду
Только небо знает правду
Но не скажет никому


Потерявшие мечту
Мы сидим на берегу
А у реки нет воды
В мире только я и ты


Если в небе ни звезды
В мире только я и ты
В океане нет воды
В мире только я и ты

Видео к песне

Понравилась песня "Кто украл мою звезду" ?

Поделись с друзьями:
0

Привет, гитарист!

Пройди супер-курс по гитаре и порази всех своей игрой!

Забрать курс!
ВАМ ПОДАРКИ ОТ ПРОЕКТА
"ГИТАРНАЯ РЕВОЛЮЦИЯ"