Агата Кристи - Кошка - аккорды и текст песни

Вступление:

E---------|---------|---------
B---------|---------|---------
G-------2-|---------|---2-----
D---0-0---|-0-0---0-|-0---0-0-
A-0-------|-----0---|---------
E---------|---------|---------


||-------------|----------------|------------
||-------------|----------------|------------
||.------------|----------------|------------
||.-2--3--2--0-|-2---3---2----0-|------------
||-------------|----------------|------------
||-------------|----------------|------------
    Моя кошка больна смертью	
--------------|------------||----------------|------------|---------------|
--------------|------------||----------------|------------|----0------0---|
--------------|-----------.||----------------|----------0-|-2------2----2-|
--2--3--2---3-|-2----2--0-.||--2----3--2---3-|-2--3--3----|---------------|
--------------|---4--------||----------------|------------|---------------|
--------------|------------||----------------|------------|---------------|
  моя  кошка  умирает    Слишком долго  мы любили чтобы всё еще                                                            
-------------|---------------------|--------------------|-----------------------
--0----------|---------------------|--------------------|-----------------------
------2------|---------------------|--------------------|-----------------------
-----------2-|3--2--0--2-3--2--0---|-2----3---2--3---2--|-----2--0--------------
-------------|---------------------|--------------------|-4---------------------
-------------|---------------------|--------------------|-----------------------
  любить  Моя кошка умирает   слишком долго слишком долго      


Моя кошка больна смертью
Моя кошка умирает
Слезы кончились нам скучно
Мы устали ждать финала
Слишком долго мы любили
Чтобы всё еще любить


Моя кошка умирает
Слишком долго
Слишком долго


Моя кошка больна смертью
Моя кошка умирает
Ей не страшно ей не больно
Мне не грустно мне не жалко
Ей сегодня на помойке
Вспашут тело червяки


Моя кошка умирает
Спи спокойно
Бог с тобой

Понравилась песня "Кошка" ?

Поделись с друзьями:
0

Привет, гитарист!

Пройди супер-курс по гитаре и порази всех своей игрой!

Забрать курс!
ВАМ ПОДАРКИ ОТ ПРОЕКТА
"ГИТАРНАЯ РЕВОЛЮЦИЯ"